ISO-10303-21;
HEADER;
FILE_DESCRIPTION((''),'2;1');
FILE_NAME('UBZ1-50N','2023-11-02T',('dell'),(''),
'PRO/ENGINEER BY PARAMETRIC TECHNOLOGY CORPORATION, 2013230',
'PRO/ENGINEER BY PARAMETRIC TECHNOLOGY CORPORATION, 2013230','');
FILE_SCHEMA(('AUTOMOTIVE_DESIGN { 1 0 10303 214 1 1 1 1 }'));
ENDSEC;
DATA;
#17=DIRECTION('',(-1.745240643501E-2,9.998476951564E-1,0.E0));
#18=VECTOR('',#17,5.106013392502E0);
#19=CARTESIAN_POINT('',(2.5E1,-2.35E0,-7.E0));
#20=LINE('',#19,#18);
#21=CARTESIAN_POINT('',(2.461093347046E1,2.75E0,-7.E0));
#22=DIRECTION('',(0.E0,0.E0,1.E0));
#23=DIRECTION('',(9.998476951564E-1,1.745240643550E-2,0.E0));
#24=AXIS2_PLACEMENT_3D('',#21,#22,#23);
#26=DIRECTION('',(-1.E0,0.E0,0.E0));
#27=VECTOR('',#26,4.922186694083E1);
#28=CARTESIAN_POINT('',(2.461093347046E1,3.05E0,-7.E0));
#29=LINE('',#28,#27);
#30=CARTESIAN_POINT('',(-2.461093347037E1,2.75E0,-7.E0));
#31=DIRECTION('',(0.E0,0.E0,1.E0));
#32=DIRECTION('',(-2.131628207280E-13,1.E0,0.E0));
#33=AXIS2_PLACEMENT_3D('',#30,#31,#32);
#35=DIRECTION('',(-1.745240645350E-2,-9.998476951561E-1,0.E0));
#36=VECTOR('',#35,5.106013392509E0);
#37=CARTESIAN_POINT('',(-2.491088777892E1,2.755235721936E0,-7.E0));
#38=LINE('',#37,#36);
#39=DIRECTION('',(-1.E0,0.E0,0.E0));
#40=VECTOR('',#39,5.E1);
#41=CARTESIAN_POINT('',(2.5E1,-2.35E0,-7.E0));
#42=LINE('',#41,#40);
#43=DIRECTION('',(0.E0,0.E0,1.E0));
#44=VECTOR('',#43,1.4E1);
#45=CARTESIAN_POINT('',(-2.5E1,-2.35E0,-7.E0));
#46=LINE('',#45,#44);
#47=DIRECTION('',(1.E0,0.E0,0.E0));
#48=VECTOR('',#47,5.E1);
#49=CARTESIAN_POINT('',(-2.5E1,-2.35E0,7.E0));
#50=LINE('',#49,#48);
#51=DIRECTION('',(1.E0,0.E0,0.E0));
#52=VECTOR('',#51,4.747556290910E1);
#53=CARTESIAN_POINT('',(-2.373778145454E1,-2.35E0,5.9E0));
#54=LINE('',#53,#52);
#55=DIRECTION('',(0.E0,0.E0,1.E0));
#56=VECTOR('',#55,1.18E1);
#57=CARTESIAN_POINT('',(2.373778145456E1,-2.35E0,-5.9E0));
#58=LINE('',#57,#56);
#59=DIRECTION('',(0.E0,0.E0,1.E0));
#60=VECTOR('',#59,1.4E1);
#61=CARTESIAN_POINT('',(-2.491088777892E1,2.755235721936E0,-7.E0));
#62=LINE('',#61,#60);
#63=DIRECTION('',(0.E0,0.E0,1.E0));
#64=VECTOR('',#63,1.4E1);
#65=CARTESIAN_POINT('',(-2.461093347037E1,3.05E0,-7.E0));
#66=LINE('',#65,#64);
#67=DIRECTION('',(0.E0,0.E0,1.E0));
#68=VECTOR('',#67,1.4E1);
#69=CARTESIAN_POINT('',(2.461093347046E1,3.05E0,-7.E0));
#70=LINE('',#69,#68);
#71=DIRECTION('',(0.E0,0.E0,1.E0));
#72=VECTOR('',#71,1.4E1);
#73=CARTESIAN_POINT('',(2.491088777901E1,2.755235721931E0,-7.E0));
#74=LINE('',#73,#72);
#75=DIRECTION('',(0.E0,0.E0,1.E0));
#76=VECTOR('',#75,1.4E1);
#77=CARTESIAN_POINT('',(2.5E1,-2.35E0,-7.E0));
#78=LINE('',#77,#76);
#79=DIRECTION('',(-1.745240645350E-2,-9.998476951561E-1,0.E0));
#80=VECTOR('',#79,5.106013392509E0);
#81=CARTESIAN_POINT('',(-2.491088777892E1,2.755235721936E0,7.E0));
#82=LINE('',#81,#80);
#83=CARTESIAN_POINT('',(-2.461093347037E1,2.75E0,7.E0));
#84=DIRECTION('',(0.E0,0.E0,1.E0));
#85=DIRECTION('',(-2.131628207280E-13,1.E0,0.E0));
#86=AXIS2_PLACEMENT_3D('',#83,#84,#85);
#88=DIRECTION('',(-1.E0,0.E0,0.E0));
#89=VECTOR('',#88,4.922186694083E1);
#90=CARTESIAN_POINT('',(2.461093347046E1,3.05E0,7.E0));
#91=LINE('',#90,#89);
#92=CARTESIAN_POINT('',(2.461093347046E1,2.75E0,7.E0));
#93=DIRECTION('',(0.E0,0.E0,1.E0));
#94=DIRECTION('',(9.998476951564E-1,1.745240643550E-2,0.E0));
#95=AXIS2_PLACEMENT_3D('',#92,#93,#94);
#97=DIRECTION('',(-1.745240643501E-2,9.998476951564E-1,0.E0));
#98=VECTOR('',#97,5.106013392502E0);
#99=CARTESIAN_POINT('',(2.5E1,-2.35E0,7.E0));
#100=LINE('',#99,#98);
#101=DIRECTION('',(-1.745240644907E-2,-9.998476951562E-1,0.E0));
#102=VECTOR('',#101,7.001066296309E-1);
#103=CARTESIAN_POINT('',(-2.373778145454E1,-2.35E0,5.9E0));
#104=LINE('',#103,#102);
#105=DIRECTION('',(-1.745240644907E-2,-9.998476951562E-1,0.E0));
#106=VECTOR('',#105,7.001066296309E-1);
#107=CARTESIAN_POINT('',(-2.373778145454E1,-2.35E0,-5.9E0));
#108=LINE('',#107,#106);
#109=DIRECTION('',(0.E0,0.E0,1.E0));
#110=VECTOR('',#109,1.18E1);
#111=CARTESIAN_POINT('',(-2.373778145454E1,-2.35E0,-5.9E0));
#112=LINE('',#111,#110);
#113=DIRECTION('',(1.E0,0.E0,0.E0));
#114=VECTOR('',#113,4.75E1);
#115=CARTESIAN_POINT('',(-2.375E1,-3.05E0,5.9E0));
#116=LINE('',#115,#114);
#117=DIRECTION('',(1.E0,0.E0,0.E0));
#118=VECTOR('',#117,4.75E1);
#119=CARTESIAN_POINT('',(-2.375E1,-3.05E0,-5.9E0));
#120=LINE('',#119,#118);
#121=DIRECTION('',(0.E0,0.E0,1.E0));
#122=VECTOR('',#121,1.18E1);
#123=CARTESIAN_POINT('',(-2.375E1,-3.05E0,-5.9E0));
#124=LINE('',#123,#122);
#125=DIRECTION('',(-1.745240642907E-2,9.998476951565E-1,0.E0));
#126=VECTOR('',#125,7.001066296307E-1);
#127=CARTESIAN_POINT('',(2.375E1,-3.05E0,5.9E0));
#128=LINE('',#127,#126);
#129=DIRECTION('',(-1.745240642907E-2,9.998476951565E-1,0.E0));
#130=VECTOR('',#129,7.001066296307E-1);
#131=CARTESIAN_POINT('',(2.375E1,-3.05E0,-5.9E0));
#132=LINE('',#131,#130);
#133=DIRECTION('',(0.E0,0.E0,1.E0));
#134=VECTOR('',#133,1.18E1);
#135=CARTESIAN_POINT('',(2.375E1,-3.05E0,-5.9E0));
#136=LINE('',#135,#134);
#137=DIRECTION('',(1.E0,0.E0,0.E0));
#138=VECTOR('',#137,4.747556290910E1);
#139=CARTESIAN_POINT('',(-2.373778145454E1,-2.35E0,-5.9E0));
#140=LINE('',#139,#138);
#141=CARTESIAN_POINT('',(2.5E1,-2.35E0,-7.E0));
#142=CARTESIAN_POINT('',(2.491088777901E1,2.755235721931E0,-7.E0));
#143=VERTEX_POINT('',#141);
#144=VERTEX_POINT('',#142);
#145=CARTESIAN_POINT('',(2.461093347046E1,3.05E0,-7.E0));
#146=VERTEX_POINT('',#145);
#147=CARTESIAN_POINT('',(-2.461093347037E1,3.05E0,-7.E0));
#148=VERTEX_POINT('',#147);
#149=CARTESIAN_POINT('',(-2.491088777892E1,2.755235721936E0,-7.E0));
#150=VERTEX_POINT('',#149);
#151=CARTESIAN_POINT('',(-2.5E1,-2.35E0,-7.E0));
#152=VERTEX_POINT('',#151);
#153=CARTESIAN_POINT('',(2.5E1,-2.35E0,7.E0));
#154=CARTESIAN_POINT('',(2.491088777901E1,2.755235721931E0,7.E0));
#155=VERTEX_POINT('',#153);
#156=VERTEX_POINT('',#154);
#157=CARTESIAN_POINT('',(2.461093347046E1,3.05E0,7.E0));
#158=VERTEX_POINT('',#157);
#159=CARTESIAN_POINT('',(-2.461093347037E1,3.05E0,7.E0));
#160=VERTEX_POINT('',#159);
#161=CARTESIAN_POINT('',(-2.491088777892E1,2.755235721936E0,7.E0));
#162=VERTEX_POINT('',#161);
#163=CARTESIAN_POINT('',(-2.5E1,-2.35E0,7.E0));
#164=VERTEX_POINT('',#163);
#165=CARTESIAN_POINT('',(-2.373778145454E1,-2.35E0,5.9E0));
#166=CARTESIAN_POINT('',(-2.375E1,-3.05E0,5.9E0));
#167=VERTEX_POINT('',#165);
#168=VERTEX_POINT('',#166);
#169=CARTESIAN_POINT('',(-2.373778145454E1,-2.35E0,-5.9E0));
#170=CARTESIAN_POINT('',(-2.375E1,-3.05E0,-5.9E0));
#171=VERTEX_POINT('',#169);
#172=VERTEX_POINT('',#170);
#173=CARTESIAN_POINT('',(2.375E1,-3.05E0,5.9E0));
#174=VERTEX_POINT('',#173);
#175=CARTESIAN_POINT('',(2.375E1,-3.05E0,-5.9E0));
#176=VERTEX_POINT('',#175);
#177=CARTESIAN_POINT('',(2.373778145456E1,-2.35E0,5.9E0));
#178=VERTEX_POINT('',#177);
#179=CARTESIAN_POINT('',(2.373778145456E1,-2.35E0,-5.9E0));
#180=VERTEX_POINT('',#179);
#181=CARTESIAN_POINT('',(0.E0,0.E0,-7.E0));
#182=DIRECTION('',(0.E0,0.E0,1.E0));
#183=DIRECTION('',(1.E0,0.E0,0.E0));
#184=AXIS2_PLACEMENT_3D('',#181,#182,#183);
#185=PLANE('',#184);
#187=ORIENTED_EDGE('',*,*,#186,.F.);
#189=ORIENTED_EDGE('',*,*,#188,.T.);
#191=ORIENTED_EDGE('',*,*,#190,.T.);
#193=ORIENTED_EDGE('',*,*,#192,.T.);
#195=ORIENTED_EDGE('',*,*,#194,.T.);
#197=ORIENTED_EDGE('',*,*,#196,.T.);
#198=EDGE_LOOP('',(#187,#189,#191,#193,#195,#197));
#199=FACE_OUTER_BOUND('',#198,.F.);
#201=CARTESIAN_POINT('',(2.373778145456E1,-2.35E0,-7.E0));
#202=DIRECTION('',(0.E0,-1.E0,0.E0));
#203=DIRECTION('',(1.E0,0.E0,0.E0));
#204=AXIS2_PLACEMENT_3D('',#201,#202,#203);
#205=PLANE('',#204);
#206=ORIENTED_EDGE('',*,*,#186,.T.);
#208=ORIENTED_EDGE('',*,*,#207,.T.);
#210=ORIENTED_EDGE('',*,*,#209,.T.);
#212=ORIENTED_EDGE('',*,*,#211,.F.);
#213=EDGE_LOOP('',(#206,#208,#210,#212));
#214=FACE_OUTER_BOUND('',#213,.F.);
#216=ORIENTED_EDGE('',*,*,#215,.F.);
#218=ORIENTED_EDGE('',*,*,#217,.F.);
#220=ORIENTED_EDGE('',*,*,#219,.T.);
#222=ORIENTED_EDGE('',*,*,#221,.T.);
#223=EDGE_LOOP('',(#216,#218,#220,#222));
#224=FACE_BOUND('',#223,.F.);
#226=CARTESIAN_POINT('',(-2.491088777892E1,2.755235721936E0,-7.E0));
#227=DIRECTION('',(-9.998476951561E-1,1.745240645350E-2,0.E0));
#228=DIRECTION('',(-1.745240645350E-2,-9.998476951561E-1,0.E0));
#229=AXIS2_PLACEMENT_3D('',#226,#227,#228);
#230=PLANE('',#229);
#231=ORIENTED_EDGE('',*,*,#196,.F.);
#233=ORIENTED_EDGE('',*,*,#232,.T.);
#235=ORIENTED_EDGE('',*,*,#234,.T.);
#236=ORIENTED_EDGE('',*,*,#207,.F.);
#237=EDGE_LOOP('',(#231,#233,#235,#236));
#238=FACE_OUTER_BOUND('',#237,.F.);
#240=CARTESIAN_POINT('',(-2.461093347037E1,2.75E0,-7.E0));
#241=DIRECTION('',(0.E0,0.E0,1.E0));
#242=DIRECTION('',(1.E0,0.E0,0.E0));
#243=AXIS2_PLACEMENT_3D('',#240,#241,#242);
#244=CYLINDRICAL_SURFACE('',#243,3.E-1);
#245=ORIENTED_EDGE('',*,*,#194,.F.);
#247=ORIENTED_EDGE('',*,*,#246,.T.);
#249=ORIENTED_EDGE('',*,*,#248,.T.);
#250=ORIENTED_EDGE('',*,*,#232,.F.);
#251=EDGE_LOOP('',(#245,#247,#249,#250));
#252=FACE_OUTER_BOUND('',#251,.F.);
#254=CARTESIAN_POINT('',(2.461093347046E1,3.05E0,-7.E0));
#255=DIRECTION('',(0.E0,1.E0,0.E0));
#256=DIRECTION('',(-1.E0,0.E0,0.E0));
#257=AXIS2_PLACEMENT_3D('',#254,#255,#256);
#258=PLANE('',#257);
#259=ORIENTED_EDGE('',*,*,#192,.F.);
#261=ORIENTED_EDGE('',*,*,#260,.T.);
#263=ORIENTED_EDGE('',*,*,#262,.T.);
#264=ORIENTED_EDGE('',*,*,#246,.F.);
#265=EDGE_LOOP('',(#259,#261,#263,#264));
#266=FACE_OUTER_BOUND('',#265,.F.);
#268=CARTESIAN_POINT('',(2.461093347046E1,2.75E0,-7.E0));
#269=DIRECTION('',(0.E0,0.E0,1.E0));
#270=DIRECTION('',(1.E0,0.E0,0.E0));
#271=AXIS2_PLACEMENT_3D('',#268,#269,#270);
#272=CYLINDRICAL_SURFACE('',#271,3.E-1);
#273=ORIENTED_EDGE('',*,*,#190,.F.);
#275=ORIENTED_EDGE('',*,*,#274,.T.);
#277=ORIENTED_EDGE('',*,*,#276,.T.);
#278=ORIENTED_EDGE('',*,*,#260,.F.);
#279=EDGE_LOOP('',(#273,#275,#277,#278));
#280=FACE_OUTER_BOUND('',#279,.F.);
#282=CARTESIAN_POINT('',(2.5E1,-2.35E0,-7.E0));
#283=DIRECTION('',(9.998476951564E-1,1.745240643501E-2,0.E0));
#284=DIRECTION('',(-1.745240643501E-2,9.998476951564E-1,0.E0));
#285=AXIS2_PLACEMENT_3D('',#282,#283,#284);
#286=PLANE('',#285);
#287=ORIENTED_EDGE('',*,*,#188,.F.);
#288=ORIENTED_EDGE('',*,*,#211,.T.);
#290=ORIENTED_EDGE('',*,*,#289,.T.);
#291=ORIENTED_EDGE('',*,*,#274,.F.);
#292=EDGE_LOOP('',(#287,#288,#290,#291));
#293=FACE_OUTER_BOUND('',#292,.F.);
#295=CARTESIAN_POINT('',(0.E0,0.E0,7.E0));
#296=DIRECTION('',(0.E0,0.E0,1.E0));
#297=DIRECTION('',(1.E0,0.E0,0.E0));
#298=AXIS2_PLACEMENT_3D('',#295,#296,#297);
#299=PLANE('',#298);
#300=ORIENTED_EDGE('',*,*,#209,.F.);
#301=ORIENTED_EDGE('',*,*,#234,.F.);
#302=ORIENTED_EDGE('',*,*,#248,.F.);
#303=ORIENTED_EDGE('',*,*,#262,.F.);
#304=ORIENTED_EDGE('',*,*,#276,.F.);
#305=ORIENTED_EDGE('',*,*,#289,.F.);
#306=EDGE_LOOP('',(#300,#301,#302,#303,#304,#305));
#307=FACE_OUTER_BOUND('',#306,.F.);
#309=CARTESIAN_POINT('',(-3.E1,-3.05E0,5.9E0));
#310=DIRECTION('',(0.E0,0.E0,-1.E0));
#311=DIRECTION('',(0.E0,1.E0,0.E0));
#312=AXIS2_PLACEMENT_3D('',#309,#310,#311);
#313=PLANE('',#312);
#315=ORIENTED_EDGE('',*,*,#314,.F.);
#316=ORIENTED_EDGE('',*,*,#215,.T.);
#318=ORIENTED_EDGE('',*,*,#317,.F.);
#320=ORIENTED_EDGE('',*,*,#319,.F.);
#321=EDGE_LOOP('',(#315,#316,#318,#320));
#322=FACE_OUTER_BOUND('',#321,.F.);
#324=CARTESIAN_POINT('',(-2.373778145454E1,-2.35E0,-7.E0));
#325=DIRECTION('',(-9.998476951562E-1,1.745240644907E-2,0.E0));
#326=DIRECTION('',(-1.745240644907E-2,-9.998476951562E-1,0.E0));
#327=AXIS2_PLACEMENT_3D('',#324,#325,#326);
#328=PLANE('',#327);
#329=ORIENTED_EDGE('',*,*,#314,.T.);
#331=ORIENTED_EDGE('',*,*,#330,.F.);
#333=ORIENTED_EDGE('',*,*,#332,.F.);
#334=ORIENTED_EDGE('',*,*,#217,.T.);
#335=EDGE_LOOP('',(#329,#331,#333,#334));
#336=FACE_OUTER_BOUND('',#335,.F.);
#338=CARTESIAN_POINT('',(-2.375E1,-3.05E0,-7.E0));
#339=DIRECTION('',(0.E0,-1.E0,0.E0));
#340=DIRECTION('',(1.E0,0.E0,0.E0));
#341=AXIS2_PLACEMENT_3D('',#338,#339,#340);
#342=PLANE('',#341);
#343=ORIENTED_EDGE('',*,*,#319,.T.);
#345=ORIENTED_EDGE('',*,*,#344,.F.);
#347=ORIENTED_EDGE('',*,*,#346,.F.);
#348=ORIENTED_EDGE('',*,*,#330,.T.);
#349=EDGE_LOOP('',(#343,#345,#347,#348));
#350=FACE_OUTER_BOUND('',#349,.F.);
#352=CARTESIAN_POINT('',(2.375E1,-3.05E0,-7.E0));
#353=DIRECTION('',(9.998476951565E-1,1.745240642907E-2,0.E0));
#354=DIRECTION('',(-1.745240642907E-2,9.998476951565E-1,0.E0));
#355=AXIS2_PLACEMENT_3D('',#352,#353,#354);
#356=PLANE('',#355);
#357=ORIENTED_EDGE('',*,*,#317,.T.);
#358=ORIENTED_EDGE('',*,*,#221,.F.);
#360=ORIENTED_EDGE('',*,*,#359,.F.);
#361=ORIENTED_EDGE('',*,*,#344,.T.);
#362=EDGE_LOOP('',(#357,#358,#360,#361));
#363=FACE_OUTER_BOUND('',#362,.F.);
#365=CARTESIAN_POINT('',(-3.E1,-2.35E0,-5.9E0));
#366=DIRECTION('',(0.E0,0.E0,1.E0));
#367=DIRECTION('',(0.E0,-1.E0,0.E0));
#368=AXIS2_PLACEMENT_3D('',#365,#366,#367);
#369=PLANE('',#368);
#370=ORIENTED_EDGE('',*,*,#332,.T.);
#371=ORIENTED_EDGE('',*,*,#346,.T.);
#372=ORIENTED_EDGE('',*,*,#359,.T.);
#373=ORIENTED_EDGE('',*,*,#219,.F.);
#374=EDGE_LOOP('',(#370,#371,#372,#373));
#375=FACE_OUTER_BOUND('',#374,.F.);
#377=CLOSED_SHELL('',(#200,#225,#239,#253,#267,#281,#294,#308,#323,#337,#351,
#364,#376));
#378=MANIFOLD_SOLID_BREP('',#377);
#381=PLANE_ANGLE_MEASURE_WITH_UNIT(PLANE_ANGLE_MEASURE(1.745329251994E-2),#380);
#382=(CONVERSION_BASED_UNIT('DEGREE',#381)NAMED_UNIT(*)PLANE_ANGLE_UNIT());
#384=UNCERTAINTY_MEASURE_WITH_UNIT(LENGTH_MEASURE(5.227801973653E-3),#379,
'distance_accuracy_value',
'Maximum model space distance between geometric entities at asserted connectivities');
#387=APPLICATION_CONTEXT('automotive_design');
#388=APPLICATION_PROTOCOL_DEFINITION('international standard',
'automotive_design',2001,#387);
#389=PRODUCT_DEFINITION_CONTEXT('part definition',#387,'design');
#390=PRODUCT_CONTEXT('',#387,'mechanical');
#391=PRODUCT('UBZ1-50N','UBZ1-50N','NOT SPECIFIED',(#390));
#392=PRODUCT_DEFINITION_FORMATION('1','LAST_VERSION',#391);
#400=DERIVED_UNIT_ELEMENT(#399,2.E0);
#401=DERIVED_UNIT((#400));
#402=MEASURE_REPRESENTATION_ITEM('surface area measure',AREA_MEASURE(
2.167324212873E3),#401);
#407=DERIVED_UNIT_ELEMENT(#406,3.E0);
#408=DERIVED_UNIT((#407));
#409=MEASURE_REPRESENTATION_ITEM('volume measure',VOLUME_MEASURE(
4.164604016624E3),#408);
#413=CARTESIAN_POINT('centre point',(-3.645976027589E-8,6.086024379589E-2,
0.E0));
#418=DERIVED_UNIT_ELEMENT(#417,2.E0);
#419=DERIVED_UNIT((#418));
#420=MEASURE_REPRESENTATION_ITEM('surface area measure',AREA_MEASURE(
2.167324212873E3),#419);
#425=DERIVED_UNIT_ELEMENT(#424,3.E0);
#426=DERIVED_UNIT((#425));
#427=MEASURE_REPRESENTATION_ITEM('volume measure',VOLUME_MEASURE(
4.164604016624E3),#426);
#431=CARTESIAN_POINT('centre point',(-3.645976027589E-8,6.086024379589E-2,
0.E0));
#436=PRODUCT_RELATED_PRODUCT_CATEGORY('part','',(#391));
#438=GENERAL_PROPERTY('','DESCRIPTION','user defined attribute');
#439=GENERAL_PROPERTY_ASSOCIATION('user defined attribute','',#438,#437);
#440=DESCRIPTIVE_REPRESENTATION_ITEM('DESCRIPTION','');
#444=GENERAL_PROPERTY('','MODELED_BY','user defined attribute');
#445=GENERAL_PROPERTY_ASSOCIATION('user defined attribute','',#444,#443);
#446=DESCRIPTIVE_REPRESENTATION_ITEM('MODELED_BY','');
#1=DRAUGHTING_PRE_DEFINED_COLOUR('green');
#2=DRAUGHTING_PRE_DEFINED_COLOUR('cyan');
#3=COLOUR_RGB('',1.1E-2,1.2E-2,1.E0);
#4=COLOUR_RGB('',3.92E-1,1.2E-2,1.2E-2);
#5=COLOUR_RGB('',4.1E-1,0.E0,2.2E-1);
#6=COLOUR_RGB('',5.019607843137E-1,5.019607843137E-1,5.019607843137E-1);
#7=COLOUR_RGB('',6.952E-1,7.426E-1,7.9E-1);
#8=COLOUR_RGB('',7.84314E-1,7.84314E-1,7.84314E-1);
#9=COLOUR_RGB('',8.784E-1,9.49E-1,1.E0);
#10=COLOUR_RGB('',9.6E-1,9.6E-1,9.6E-1);
#11=COLOUR_RGB('',9.8E-1,6.27E-1,0.E0);
#12=DRAUGHTING_PRE_DEFINED_COLOUR('red');
#13=DRAUGHTING_PRE_DEFINED_COLOUR('magenta');
#14=DRAUGHTING_PRE_DEFINED_COLOUR('yellow');
#15=COLOUR_RGB('',1.E0,1.E0,9.49E-1);
#16=DRAUGHTING_PRE_DEFINED_COLOUR('white');
#25=CIRCLE('',#24,3.E-1);
#34=CIRCLE('',#33,3.E-1);
#87=CIRCLE('',#86,3.E-1);
#96=CIRCLE('',#95,3.E-1);
#186=EDGE_CURVE('',#143,#152,#42,.T.);
#188=EDGE_CURVE('',#143,#144,#20,.T.);
#190=EDGE_CURVE('',#144,#146,#25,.T.);
#192=EDGE_CURVE('',#146,#148,#29,.T.);
#194=EDGE_CURVE('',#148,#150,#34,.T.);
#196=EDGE_CURVE('',#150,#152,#38,.T.);
#200=ADVANCED_FACE('',(#199),#185,.F.);
#207=EDGE_CURVE('',#152,#164,#46,.T.);
#209=EDGE_CURVE('',#164,#155,#50,.T.);
#211=EDGE_CURVE('',#143,#155,#78,.T.);
#215=EDGE_CURVE('',#167,#178,#54,.T.);
#217=EDGE_CURVE('',#171,#167,#112,.T.);
#219=EDGE_CURVE('',#171,#180,#140,.T.);
#221=EDGE_CURVE('',#180,#178,#58,.T.);
#225=ADVANCED_FACE('',(#214,#224),#205,.T.);
#232=EDGE_CURVE('',#150,#162,#62,.T.);
#234=EDGE_CURVE('',#162,#164,#82,.T.);
#239=ADVANCED_FACE('',(#238),#230,.T.);
#246=EDGE_CURVE('',#148,#160,#66,.T.);
#248=EDGE_CURVE('',#160,#162,#87,.T.);
#253=ADVANCED_FACE('',(#252),#244,.T.);
#260=EDGE_CURVE('',#146,#158,#70,.T.);
#262=EDGE_CURVE('',#158,#160,#91,.T.);
#267=ADVANCED_FACE('',(#266),#258,.T.);
#274=EDGE_CURVE('',#144,#156,#74,.T.);
#276=EDGE_CURVE('',#156,#158,#96,.T.);
#281=ADVANCED_FACE('',(#280),#272,.T.);
#289=EDGE_CURVE('',#155,#156,#100,.T.);
#294=ADVANCED_FACE('',(#293),#286,.T.);
#308=ADVANCED_FACE('',(#307),#299,.T.);
#314=EDGE_CURVE('',#167,#168,#104,.T.);
#317=EDGE_CURVE('',#174,#178,#128,.T.);
#319=EDGE_CURVE('',#168,#174,#116,.T.);
#323=ADVANCED_FACE('',(#322),#313,.F.);
#330=EDGE_CURVE('',#172,#168,#124,.T.);
#332=EDGE_CURVE('',#171,#172,#108,.T.);
#337=ADVANCED_FACE('',(#336),#328,.T.);
#344=EDGE_CURVE('',#176,#174,#136,.T.);
#346=EDGE_CURVE('',#172,#176,#120,.T.);
#351=ADVANCED_FACE('',(#350),#342,.T.);
#359=EDGE_CURVE('',#176,#180,#132,.T.);
#364=ADVANCED_FACE('',(#363),#356,.T.);
#376=ADVANCED_FACE('',(#375),#369,.F.);
#379=(LENGTH_UNIT()NAMED_UNIT(*)SI_UNIT(.MILLI.,.METRE.));
#380=(NAMED_UNIT(*)PLANE_ANGLE_UNIT()SI_UNIT($,.RADIAN.));
#383=(NAMED_UNIT(*)SI_UNIT($,.STERADIAN.)SOLID_ANGLE_UNIT());
#385=(GEOMETRIC_REPRESENTATION_CONTEXT(3)GLOBAL_UNCERTAINTY_ASSIGNED_CONTEXT((
#384))GLOBAL_UNIT_ASSIGNED_CONTEXT((#379,#382,#383))REPRESENTATION_CONTEXT
('ID1','3'));
#386=ADVANCED_BREP_SHAPE_REPRESENTATION('',(#378),#385);
#393=PRODUCT_DEFINITION('part definition','',#392,#389);
#394=PRODUCT_DEFINITION_SHAPE('','SHAPE FOR UBZ1-50N.',#393);
#395=SHAPE_ASPECT('','solid data associated with UBZ1-50N',#394,.F.);
#396=PROPERTY_DEFINITION('',
'shape for solid data with which properties are associated',#395);
#397=SHAPE_REPRESENTATION('',(#378),#385);
#398=SHAPE_DEFINITION_REPRESENTATION(#396,#397);
#399=(LENGTH_UNIT()NAMED_UNIT(*)SI_UNIT(.MILLI.,.METRE.));
#403=PROPERTY_DEFINITION('geometric validation property','area of UBZ1-50N',
#395);
#404=REPRESENTATION('surface area',(#402),#385);
#405=PROPERTY_DEFINITION_REPRESENTATION(#403,#404);
#406=(LENGTH_UNIT()NAMED_UNIT(*)SI_UNIT(.MILLI.,.METRE.));
#410=PROPERTY_DEFINITION('geometric validation property','volume of UBZ1-50N',
#395);
#411=REPRESENTATION('volume',(#409),#385);
#412=PROPERTY_DEFINITION_REPRESENTATION(#410,#411);
#414=PROPERTY_DEFINITION('geometric validation property','centroid of UBZ1-50N',
#395);
#415=REPRESENTATION('centroid',(#413),#385);
#416=PROPERTY_DEFINITION_REPRESENTATION(#414,#415);
#417=(LENGTH_UNIT()NAMED_UNIT(*)SI_UNIT(.MILLI.,.METRE.));
#421=PROPERTY_DEFINITION('geometric validation property','area of UBZ1-50N',
#394);
#422=REPRESENTATION('surface area',(#420),#385);
#423=PROPERTY_DEFINITION_REPRESENTATION(#421,#422);
#424=(LENGTH_UNIT()NAMED_UNIT(*)SI_UNIT(.MILLI.,.METRE.));
#428=PROPERTY_DEFINITION('geometric validation property','volume of UBZ1-50N',
#394);
#429=REPRESENTATION('volume',(#427),#385);
#430=PROPERTY_DEFINITION_REPRESENTATION(#428,#429);
#432=PROPERTY_DEFINITION('geometric validation property','centroid of UBZ1-50N',
#394);
#433=REPRESENTATION('centroid',(#431),#385);
#434=PROPERTY_DEFINITION_REPRESENTATION(#432,#433);
#435=SHAPE_DEFINITION_REPRESENTATION(#394,#386);
#437=PROPERTY_DEFINITION('DESCRIPTION','user defined attribute',#393);
#441=REPRESENTATION('',(#440),#385);
#442=PROPERTY_DEFINITION_REPRESENTATION(#437,#441);
#443=PROPERTY_DEFINITION('MODELED_BY','user defined attribute',#393);
#447=REPRESENTATION('',(#446),#385);
#448=PROPERTY_DEFINITION_REPRESENTATION(#443,#447);
ENDSEC;
END-ISO-10303-21;
