ISO-10303-21;
HEADER;
FILE_DESCRIPTION((''),'2;1');
FILE_NAME('8YB750032','2023-06-12T',('dell'),(''),
'PRO/ENGINEER BY PARAMETRIC TECHNOLOGY CORPORATION, 2013230',
'PRO/ENGINEER BY PARAMETRIC TECHNOLOGY CORPORATION, 2013230','');
FILE_SCHEMA(('CONFIG_CONTROL_DESIGN'));
ENDSEC;
DATA;
#1=CARTESIAN_POINT('',(-2.41E1,0.E0,9.E0));
#2=DIRECTION('',(0.E0,1.E0,0.E0));
#3=DIRECTION('',(-1.E0,0.E0,0.E0));
#4=AXIS2_PLACEMENT_3D('',#1,#2,#3);
#6=DIRECTION('',(1.E0,0.E0,0.E0));
#7=VECTOR('',#6,4.75E1);
#8=CARTESIAN_POINT('',(-2.41E1,0.E0,1.1E1));
#9=LINE('',#8,#7);
#10=DIRECTION('',(5.144957554275E-1,0.E0,-8.574929257125E-1));
#11=VECTOR('',#10,5.247856705361E0);
#12=CARTESIAN_POINT('',(2.34E1,0.E0,1.1E1));
#13=LINE('',#12,#11);
#14=DIRECTION('',(0.E0,0.E0,-1.E0));
#15=VECTOR('',#14,1.75E1);
#16=CARTESIAN_POINT('',(2.61E1,0.E0,6.5E0));
#17=LINE('',#16,#15);
#18=DIRECTION('',(-1.E0,0.E0,0.E0));
#19=VECTOR('',#18,5.22E1);
#20=CARTESIAN_POINT('',(2.61E1,0.E0,-1.1E1));
#21=LINE('',#20,#19);
#22=DIRECTION('',(0.E0,0.E0,1.E0));
#23=VECTOR('',#22,2.E1);
#24=CARTESIAN_POINT('',(-2.61E1,0.E0,-1.1E1));
#25=LINE('',#24,#23);
#26=DIRECTION('',(0.E0,1.E0,0.E0));
#27=VECTOR('',#26,1.5E0);
#28=CARTESIAN_POINT('',(-2.61E1,0.E0,9.E0));
#29=LINE('',#28,#27);
#30=DIRECTION('',(0.E0,1.E0,0.E0));
#31=VECTOR('',#30,1.5E0);
#32=CARTESIAN_POINT('',(-2.61E1,0.E0,-1.1E1));
#33=LINE('',#32,#31);
#34=DIRECTION('',(0.E0,1.E0,0.E0));
#35=VECTOR('',#34,1.5E0);
#36=CARTESIAN_POINT('',(2.61E1,0.E0,-1.1E1));
#37=LINE('',#36,#35);
#38=DIRECTION('',(0.E0,1.E0,0.E0));
#39=VECTOR('',#38,1.5E0);
#40=CARTESIAN_POINT('',(2.61E1,0.E0,6.5E0));
#41=LINE('',#40,#39);
#42=DIRECTION('',(0.E0,1.E0,0.E0));
#43=VECTOR('',#42,1.5E0);
#44=CARTESIAN_POINT('',(2.34E1,0.E0,1.1E1));
#45=LINE('',#44,#43);
#46=DIRECTION('',(0.E0,1.E0,0.E0));
#47=VECTOR('',#46,1.5E0);
#48=CARTESIAN_POINT('',(-2.41E1,0.E0,1.1E1));
#49=LINE('',#48,#47);
#50=CARTESIAN_POINT('',(-2.41E1,1.5E0,9.E0));
#51=DIRECTION('',(0.E0,1.E0,0.E0));
#52=DIRECTION('',(-1.E0,0.E0,0.E0));
#53=AXIS2_PLACEMENT_3D('',#50,#51,#52);
#55=DIRECTION('',(0.E0,0.E0,1.E0));
#56=VECTOR('',#55,2.E1);
#57=CARTESIAN_POINT('',(-2.61E1,1.5E0,-1.1E1));
#58=LINE('',#57,#56);
#59=DIRECTION('',(-1.E0,0.E0,0.E0));
#60=VECTOR('',#59,5.22E1);
#61=CARTESIAN_POINT('',(2.61E1,1.5E0,-1.1E1));
#62=LINE('',#61,#60);
#63=DIRECTION('',(0.E0,0.E0,-1.E0));
#64=VECTOR('',#63,1.75E1);
#65=CARTESIAN_POINT('',(2.61E1,1.5E0,6.5E0));
#66=LINE('',#65,#64);
#67=DIRECTION('',(5.144957554275E-1,0.E0,-8.574929257125E-1));
#68=VECTOR('',#67,5.247856705361E0);
#69=CARTESIAN_POINT('',(2.34E1,1.5E0,1.1E1));
#70=LINE('',#69,#68);
#71=DIRECTION('',(1.E0,0.E0,0.E0));
#72=VECTOR('',#71,4.75E1);
#73=CARTESIAN_POINT('',(-2.41E1,1.5E0,1.1E1));
#74=LINE('',#73,#72);
#75=CARTESIAN_POINT('',(-2.46E1,1.5E0,1.E0));
#76=DIRECTION('',(0.E0,1.E0,0.E0));
#77=DIRECTION('',(1.E0,0.E0,0.E0));
#78=AXIS2_PLACEMENT_3D('',#75,#76,#77);
#80=CARTESIAN_POINT('',(-2.46E1,1.5E0,1.E0));
#81=DIRECTION('',(0.E0,1.E0,0.E0));
#82=DIRECTION('',(-1.E0,0.E0,0.E0));
#83=AXIS2_PLACEMENT_3D('',#80,#81,#82);
#85=CARTESIAN_POINT('',(2.46E1,1.5E0,1.E0));
#86=DIRECTION('',(0.E0,1.E0,0.E0));
#87=DIRECTION('',(1.E0,0.E0,0.E0));
#88=AXIS2_PLACEMENT_3D('',#85,#86,#87);
#90=CARTESIAN_POINT('',(2.46E1,1.5E0,1.E0));
#91=DIRECTION('',(0.E0,1.E0,0.E0));
#92=DIRECTION('',(-1.E0,0.E0,0.E0));
#93=AXIS2_PLACEMENT_3D('',#90,#91,#92);
#95=CARTESIAN_POINT('',(-2.46E1,3.689530150989E0,1.E0));
#96=DIRECTION('',(0.E0,1.E0,0.E0));
#97=DIRECTION('',(1.E0,0.E0,0.E0));
#98=AXIS2_PLACEMENT_3D('',#95,#96,#97);
#100=DIRECTION('',(3.489949670250E-2,9.993908270191E-1,1.669321882339E-9));
#101=VECTOR('',#100,2.190864766551E0);
#102=CARTESIAN_POINT('',(-2.363730192373E1,1.5E0,1.E0));
#103=LINE('',#102,#101);
#104=CARTESIAN_POINT('',(-2.386065909414E1,3.7E0,1.E0));
#105=DIRECTION('',(0.E0,0.E0,-1.E0));
#106=DIRECTION('',(-1.657933050107E-13,1.E0,0.E0));
#107=AXIS2_PLACEMENT_3D('',#104,#105,#106);
#109=CARTESIAN_POINT('',(2.46E1,4.E0,1.E0));
#110=DIRECTION('',(0.E0,1.E0,0.E0));
#111=DIRECTION('',(-1.E0,0.E0,-1.696851895895E-14));
#112=AXIS2_PLACEMENT_3D('',#109,#110,#111);
#114=CARTESIAN_POINT('',(2.46E1,4.E0,1.E0));
#115=DIRECTION('',(0.E0,1.E0,0.E0));
#116=DIRECTION('',(1.E0,0.E0,1.681835507436E-14));
#117=AXIS2_PLACEMENT_3D('',#114,#115,#116);
#119=CARTESIAN_POINT('',(-2.46E1,4.E0,1.E0));
#120=DIRECTION('',(0.E0,1.E0,0.E0));
#121=DIRECTION('',(-1.E0,0.E0,-1.696851895895E-14));
#122=AXIS2_PLACEMENT_3D('',#119,#120,#121);
#124=CARTESIAN_POINT('',(-2.46E1,4.E0,1.E0));
#125=DIRECTION('',(0.E0,1.E0,0.E0));
#126=DIRECTION('',(1.E0,0.E0,1.696851895895E-14));
#127=AXIS2_PLACEMENT_3D('',#124,#125,#126);
#129=CARTESIAN_POINT('',(2.386065909414E1,3.7E0,1.E0));
#130=DIRECTION('',(0.E0,0.E0,1.E0));
#131=DIRECTION('',(1.539509260814E-13,1.E0,0.E0));
#132=AXIS2_PLACEMENT_3D('',#129,#130,#131);
#134=CARTESIAN_POINT('',(2.533934090586E1,3.7E0,1.E0));
#135=DIRECTION('',(0.E0,0.E0,-1.E0));
#136=DIRECTION('',(-1.421085471520E-13,1.E0,0.E0));
#137=AXIS2_PLACEMENT_3D('',#134,#135,#136);
#139=CARTESIAN_POINT('',(2.46E1,3.689530150989E0,1.E0));
#140=DIRECTION('',(0.E0,1.E0,0.E0));
#141=DIRECTION('',(1.E0,0.E0,0.E0));
#142=AXIS2_PLACEMENT_3D('',#139,#140,#141);
#144=DIRECTION('',(3.489949670250E-2,9.993908270191E-1,1.669322085039E-9));
#145=VECTOR('',#144,2.190864766551E0);
#146=CARTESIAN_POINT('',(2.556269807627E1,1.5E0,1.E0));
#147=LINE('',#146,#145);
#148=CARTESIAN_POINT('',(2.46E1,3.689530150989E0,1.E0));
#149=DIRECTION('',(0.E0,1.E0,0.E0));
#150=DIRECTION('',(-1.E0,0.E0,0.E0));
#151=AXIS2_PLACEMENT_3D('',#148,#149,#150);
#153=DIRECTION('',(-3.489949670250E-2,9.993908270191E-1,-1.669321730313E-9));
#154=VECTOR('',#153,2.190864766551E0);
#155=CARTESIAN_POINT('',(2.363730192373E1,1.5E0,1.E0));
#156=LINE('',#155,#154);
#157=CARTESIAN_POINT('',(-2.533934090586E1,3.7E0,1.E0));
#158=DIRECTION('',(0.E0,0.E0,1.E0));
#159=DIRECTION('',(1.539509260814E-13,1.E0,0.E0));
#160=AXIS2_PLACEMENT_3D('',#157,#158,#159);
#162=CARTESIAN_POINT('',(-2.46E1,3.689530150989E0,1.E0));
#163=DIRECTION('',(0.E0,1.E0,0.E0));
#164=DIRECTION('',(-1.E0,0.E0,0.E0));
#165=AXIS2_PLACEMENT_3D('',#162,#163,#164);
#167=DIRECTION('',(-3.489949670250E-2,9.993908270191E-1,-1.669321831664E-9));
#168=VECTOR('',#167,2.190864766551E0);
#169=CARTESIAN_POINT('',(-2.556269807627E1,1.5E0,1.E0));
#170=LINE('',#169,#168);
#171=CARTESIAN_POINT('',(-2.61E1,0.E0,9.E0));
#172=CARTESIAN_POINT('',(-2.41E1,0.E0,1.1E1));
#173=VERTEX_POINT('',#171);
#174=VERTEX_POINT('',#172);
#175=CARTESIAN_POINT('',(2.34E1,0.E0,1.1E1));
#176=VERTEX_POINT('',#175);
#177=CARTESIAN_POINT('',(2.61E1,0.E0,6.5E0));
#178=VERTEX_POINT('',#177);
#179=CARTESIAN_POINT('',(2.61E1,0.E0,-1.1E1));
#180=VERTEX_POINT('',#179);
#181=CARTESIAN_POINT('',(-2.61E1,0.E0,-1.1E1));
#182=VERTEX_POINT('',#181);
#183=CARTESIAN_POINT('',(-2.61E1,1.5E0,9.E0));
#184=CARTESIAN_POINT('',(-2.41E1,1.5E0,1.1E1));
#185=VERTEX_POINT('',#183);
#186=VERTEX_POINT('',#184);
#187=CARTESIAN_POINT('',(2.34E1,1.5E0,1.1E1));
#188=VERTEX_POINT('',#187);
#189=CARTESIAN_POINT('',(2.61E1,1.5E0,6.5E0));
#190=VERTEX_POINT('',#189);
#191=CARTESIAN_POINT('',(2.61E1,1.5E0,-1.1E1));
#192=VERTEX_POINT('',#191);
#193=CARTESIAN_POINT('',(-2.61E1,1.5E0,-1.1E1));
#194=VERTEX_POINT('',#193);
#195=CARTESIAN_POINT('',(-2.363730192373E1,1.5E0,1.E0));
#196=CARTESIAN_POINT('',(-2.556269807627E1,1.5E0,1.E0));
#197=VERTEX_POINT('',#195);
#198=VERTEX_POINT('',#196);
#199=CARTESIAN_POINT('',(2.556269807627E1,1.5E0,1.E0));
#200=CARTESIAN_POINT('',(2.363730192373E1,1.5E0,1.E0));
#201=VERTEX_POINT('',#199);
#202=VERTEX_POINT('',#200);
#203=CARTESIAN_POINT('',(2.386065909414E1,4.E0,1.E0));
#204=CARTESIAN_POINT('',(2.533934090586E1,4.E0,1.E0));
#205=VERTEX_POINT('',#203);
#206=VERTEX_POINT('',#204);
#207=CARTESIAN_POINT('',(2.356084184603E1,3.689530150989E0,1.E0));
#208=CARTESIAN_POINT('',(2.563915815397E1,3.689530150989E0,1.E0));
#209=VERTEX_POINT('',#207);
#210=VERTEX_POINT('',#208);
#211=CARTESIAN_POINT('',(-2.533934090586E1,4.E0,1.E0));
#212=CARTESIAN_POINT('',(-2.386065909414E1,4.E0,1.E0));
#213=VERTEX_POINT('',#211);
#214=VERTEX_POINT('',#212);
#215=CARTESIAN_POINT('',(-2.563915815397E1,3.689530150989E0,1.E0));
#216=CARTESIAN_POINT('',(-2.356084184603E1,3.689530150989E0,1.E0));
#217=VERTEX_POINT('',#215);
#218=VERTEX_POINT('',#216);
#219=CARTESIAN_POINT('',(0.E0,0.E0,0.E0));
#220=DIRECTION('',(0.E0,1.E0,0.E0));
#221=DIRECTION('',(1.E0,0.E0,0.E0));
#222=AXIS2_PLACEMENT_3D('',#219,#220,#221);
#223=PLANE('',#222);
#225=ORIENTED_EDGE('',*,*,#224,.T.);
#227=ORIENTED_EDGE('',*,*,#226,.T.);
#229=ORIENTED_EDGE('',*,*,#228,.T.);
#231=ORIENTED_EDGE('',*,*,#230,.T.);
#233=ORIENTED_EDGE('',*,*,#232,.T.);
#235=ORIENTED_EDGE('',*,*,#234,.T.);
#236=EDGE_LOOP('',(#225,#227,#229,#231,#233,#235));
#237=FACE_OUTER_BOUND('',#236,.F.);
#238=ADVANCED_FACE('',(#237),#223,.F.);
#239=CARTESIAN_POINT('',(-2.41E1,0.E0,9.E0));
#240=DIRECTION('',(0.E0,1.E0,0.E0));
#241=DIRECTION('',(1.E0,0.E0,0.E0));
#242=AXIS2_PLACEMENT_3D('',#239,#240,#241);
#243=CYLINDRICAL_SURFACE('',#242,2.E0);
#244=ORIENTED_EDGE('',*,*,#224,.F.);
#246=ORIENTED_EDGE('',*,*,#245,.T.);
#248=ORIENTED_EDGE('',*,*,#247,.T.);
#250=ORIENTED_EDGE('',*,*,#249,.F.);
#251=EDGE_LOOP('',(#244,#246,#248,#250));
#252=FACE_OUTER_BOUND('',#251,.F.);
#253=ADVANCED_FACE('',(#252),#243,.T.);
#254=CARTESIAN_POINT('',(-2.61E1,0.E0,-1.1E1));
#255=DIRECTION('',(-1.E0,0.E0,0.E0));
#256=DIRECTION('',(0.E0,0.E0,1.E0));
#257=AXIS2_PLACEMENT_3D('',#254,#255,#256);
#258=PLANE('',#257);
#259=ORIENTED_EDGE('',*,*,#234,.F.);
#261=ORIENTED_EDGE('',*,*,#260,.T.);
#263=ORIENTED_EDGE('',*,*,#262,.T.);
#264=ORIENTED_EDGE('',*,*,#245,.F.);
#265=EDGE_LOOP('',(#259,#261,#263,#264));
#266=FACE_OUTER_BOUND('',#265,.F.);
#267=ADVANCED_FACE('',(#266),#258,.T.);
#268=CARTESIAN_POINT('',(2.61E1,0.E0,-1.1E1));
#269=DIRECTION('',(0.E0,0.E0,-1.E0));
#270=DIRECTION('',(-1.E0,0.E0,0.E0));
#271=AXIS2_PLACEMENT_3D('',#268,#269,#270);
#272=PLANE('',#271);
#273=ORIENTED_EDGE('',*,*,#232,.F.);
#275=ORIENTED_EDGE('',*,*,#274,.T.);
#277=ORIENTED_EDGE('',*,*,#276,.T.);
#278=ORIENTED_EDGE('',*,*,#260,.F.);
#279=EDGE_LOOP('',(#273,#275,#277,#278));
#280=FACE_OUTER_BOUND('',#279,.F.);
#281=ADVANCED_FACE('',(#280),#272,.T.);
#282=CARTESIAN_POINT('',(2.61E1,0.E0,6.5E0));
#283=DIRECTION('',(1.E0,0.E0,0.E0));
#284=DIRECTION('',(0.E0,0.E0,-1.E0));
#285=AXIS2_PLACEMENT_3D('',#282,#283,#284);
#286=PLANE('',#285);
#287=ORIENTED_EDGE('',*,*,#230,.F.);
#289=ORIENTED_EDGE('',*,*,#288,.T.);
#291=ORIENTED_EDGE('',*,*,#290,.T.);
#292=ORIENTED_EDGE('',*,*,#274,.F.);
#293=EDGE_LOOP('',(#287,#289,#291,#292));
#294=FACE_OUTER_BOUND('',#293,.F.);
#295=ADVANCED_FACE('',(#294),#286,.T.);
#296=CARTESIAN_POINT('',(2.34E1,0.E0,1.1E1));
#297=DIRECTION('',(8.574929257125E-1,0.E0,5.144957554275E-1));
#298=DIRECTION('',(5.144957554275E-1,0.E0,-8.574929257125E-1));
#299=AXIS2_PLACEMENT_3D('',#296,#297,#298);
#300=PLANE('',#299);
#301=ORIENTED_EDGE('',*,*,#228,.F.);
#303=ORIENTED_EDGE('',*,*,#302,.T.);
#305=ORIENTED_EDGE('',*,*,#304,.T.);
#306=ORIENTED_EDGE('',*,*,#288,.F.);
#307=EDGE_LOOP('',(#301,#303,#305,#306));
#308=FACE_OUTER_BOUND('',#307,.F.);
#309=ADVANCED_FACE('',(#308),#300,.T.);
#310=CARTESIAN_POINT('',(-2.41E1,0.E0,1.1E1));
#311=DIRECTION('',(0.E0,0.E0,1.E0));
#312=DIRECTION('',(1.E0,0.E0,0.E0));
#313=AXIS2_PLACEMENT_3D('',#310,#311,#312);
#314=PLANE('',#313);
#315=ORIENTED_EDGE('',*,*,#226,.F.);
#316=ORIENTED_EDGE('',*,*,#249,.T.);
#318=ORIENTED_EDGE('',*,*,#317,.T.);
#319=ORIENTED_EDGE('',*,*,#302,.F.);
#320=EDGE_LOOP('',(#315,#316,#318,#319));
#321=FACE_OUTER_BOUND('',#320,.F.);
#322=ADVANCED_FACE('',(#321),#314,.T.);
#323=CARTESIAN_POINT('',(0.E0,1.5E0,0.E0));
#324=DIRECTION('',(0.E0,1.E0,0.E0));
#325=DIRECTION('',(1.E0,0.E0,0.E0));
#326=AXIS2_PLACEMENT_3D('',#323,#324,#325);
#327=PLANE('',#326);
#328=ORIENTED_EDGE('',*,*,#247,.F.);
#329=ORIENTED_EDGE('',*,*,#262,.F.);
#330=ORIENTED_EDGE('',*,*,#276,.F.);
#331=ORIENTED_EDGE('',*,*,#290,.F.);
#332=ORIENTED_EDGE('',*,*,#304,.F.);
#333=ORIENTED_EDGE('',*,*,#317,.F.);
#334=EDGE_LOOP('',(#328,#329,#330,#331,#332,#333));
#335=FACE_OUTER_BOUND('',#334,.F.);
#337=ORIENTED_EDGE('',*,*,#336,.T.);
#339=ORIENTED_EDGE('',*,*,#338,.T.);
#340=EDGE_LOOP('',(#337,#339));
#341=FACE_BOUND('',#340,.F.);
#343=ORIENTED_EDGE('',*,*,#342,.T.);
#345=ORIENTED_EDGE('',*,*,#344,.T.);
#346=EDGE_LOOP('',(#343,#345));
#347=FACE_BOUND('',#346,.F.);
#348=ADVANCED_FACE('',(#335,#341,#347),#327,.T.);
#349=CARTESIAN_POINT('',(-2.46E1,2.594765075495E0,1.E0));
#350=DIRECTION('',(0.E0,1.E0,0.E0));
#351=DIRECTION('',(1.E0,0.E0,0.E0));
#352=AXIS2_PLACEMENT_3D('',#349,#350,#351);
#353=CONICAL_SURFACE('',#352,1.000928115120E0,2.E0);
#355=ORIENTED_EDGE('',*,*,#354,.T.);
#357=ORIENTED_EDGE('',*,*,#356,.F.);
#358=ORIENTED_EDGE('',*,*,#336,.F.);
#360=ORIENTED_EDGE('',*,*,#359,.T.);
#361=EDGE_LOOP('',(#355,#357,#358,#360));
#362=FACE_OUTER_BOUND('',#361,.F.);
#363=ADVANCED_FACE('',(#362),#353,.T.);
#364=CARTESIAN_POINT('',(-2.46E1,3.7E0,1.E0));
#365=DIRECTION('',(0.E0,1.E0,0.E0));
#366=DIRECTION('',(9.962381141826E-1,0.E0,8.665806280974E-2));
#367=AXIS2_PLACEMENT_3D('',#364,#365,#366);
#368=TOROIDAL_SURFACE('',#367,7.393409058628E-1,3.E-1);
#370=ORIENTED_EDGE('',*,*,#369,.T.);
#372=ORIENTED_EDGE('',*,*,#371,.T.);
#373=ORIENTED_EDGE('',*,*,#354,.F.);
#375=ORIENTED_EDGE('',*,*,#374,.F.);
#376=EDGE_LOOP('',(#370,#372,#373,#375));
#377=FACE_OUTER_BOUND('',#376,.F.);
#378=ADVANCED_FACE('',(#377),#368,.T.);
#379=CARTESIAN_POINT('',(0.E0,4.E0,0.E0));
#380=DIRECTION('',(0.E0,1.E0,0.E0));
#381=DIRECTION('',(1.E0,0.E0,0.E0));
#382=AXIS2_PLACEMENT_3D('',#379,#380,#381);
#383=PLANE('',#382);
#385=ORIENTED_EDGE('',*,*,#384,.F.);
#387=ORIENTED_EDGE('',*,*,#386,.F.);
#388=EDGE_LOOP('',(#385,#387));
#389=FACE_OUTER_BOUND('',#388,.F.);
#390=ADVANCED_FACE('',(#389),#383,.T.);
#391=CARTESIAN_POINT('',(0.E0,4.E0,0.E0));
#392=DIRECTION('',(0.E0,1.E0,0.E0));
#393=DIRECTION('',(1.E0,0.E0,0.E0));
#394=AXIS2_PLACEMENT_3D('',#391,#392,#393);
#395=PLANE('',#394);
#397=ORIENTED_EDGE('',*,*,#396,.F.);
#398=ORIENTED_EDGE('',*,*,#369,.F.);
#399=EDGE_LOOP('',(#397,#398));
#400=FACE_OUTER_BOUND('',#399,.F.);
#401=ADVANCED_FACE('',(#400),#395,.T.);
#402=CARTESIAN_POINT('',(2.46E1,3.7E0,1.E0));
#403=DIRECTION('',(0.E0,1.E0,0.E0));
#404=DIRECTION('',(-9.962381141826E-1,0.E0,-8.665806280974E-2));
#405=AXIS2_PLACEMENT_3D('',#402,#403,#404);
#406=TOROIDAL_SURFACE('',#405,7.393409058628E-1,3.E-1);
#407=ORIENTED_EDGE('',*,*,#384,.T.);
#409=ORIENTED_EDGE('',*,*,#408,.T.);
#411=ORIENTED_EDGE('',*,*,#410,.F.);
#413=ORIENTED_EDGE('',*,*,#412,.F.);
#414=EDGE_LOOP('',(#407,#409,#411,#413));
#415=FACE_OUTER_BOUND('',#414,.F.);
#416=ADVANCED_FACE('',(#415),#406,.T.);
#417=CARTESIAN_POINT('',(2.46E1,3.7E0,1.E0));
#418=DIRECTION('',(0.E0,1.E0,0.E0));
#419=DIRECTION('',(9.962381141826E-1,0.E0,8.665806280974E-2));
#420=AXIS2_PLACEMENT_3D('',#417,#418,#419);
#421=TOROIDAL_SURFACE('',#420,7.393409058628E-1,3.E-1);
#422=ORIENTED_EDGE('',*,*,#386,.T.);
#423=ORIENTED_EDGE('',*,*,#412,.T.);
#425=ORIENTED_EDGE('',*,*,#424,.F.);
#426=ORIENTED_EDGE('',*,*,#408,.F.);
#427=EDGE_LOOP('',(#422,#423,#425,#426));
#428=FACE_OUTER_BOUND('',#427,.F.);
#429=ADVANCED_FACE('',(#428),#421,.T.);
#430=CARTESIAN_POINT('',(2.46E1,2.594765075495E0,1.E0));
#431=DIRECTION('',(0.E0,1.E0,0.E0));
#432=DIRECTION('',(1.E0,0.E0,0.E0));
#433=AXIS2_PLACEMENT_3D('',#430,#431,#432);
#434=CONICAL_SURFACE('',#433,1.000928115120E0,2.E0);
#435=ORIENTED_EDGE('',*,*,#424,.T.);
#437=ORIENTED_EDGE('',*,*,#436,.F.);
#438=ORIENTED_EDGE('',*,*,#342,.F.);
#440=ORIENTED_EDGE('',*,*,#439,.T.);
#441=EDGE_LOOP('',(#435,#437,#438,#440));
#442=FACE_OUTER_BOUND('',#441,.F.);
#443=ADVANCED_FACE('',(#442),#434,.T.);
#444=CARTESIAN_POINT('',(2.46E1,2.594765075495E0,1.E0));
#445=DIRECTION('',(0.E0,1.E0,0.E0));
#446=DIRECTION('',(1.E0,0.E0,0.E0));
#447=AXIS2_PLACEMENT_3D('',#444,#445,#446);
#448=CONICAL_SURFACE('',#447,1.000928115120E0,2.E0);
#449=ORIENTED_EDGE('',*,*,#410,.T.);
#450=ORIENTED_EDGE('',*,*,#439,.F.);
#451=ORIENTED_EDGE('',*,*,#344,.F.);
#452=ORIENTED_EDGE('',*,*,#436,.T.);
#453=EDGE_LOOP('',(#449,#450,#451,#452));
#454=FACE_OUTER_BOUND('',#453,.F.);
#455=ADVANCED_FACE('',(#454),#448,.T.);
#456=CARTESIAN_POINT('',(-2.46E1,3.7E0,1.E0));
#457=DIRECTION('',(0.E0,1.E0,0.E0));
#458=DIRECTION('',(-9.962381141826E-1,0.E0,-8.665806280974E-2));
#459=AXIS2_PLACEMENT_3D('',#456,#457,#458);
#460=TOROIDAL_SURFACE('',#459,7.393409058628E-1,3.E-1);
#461=ORIENTED_EDGE('',*,*,#396,.T.);
#462=ORIENTED_EDGE('',*,*,#374,.T.);
#464=ORIENTED_EDGE('',*,*,#463,.F.);
#465=ORIENTED_EDGE('',*,*,#371,.F.);
#466=EDGE_LOOP('',(#461,#462,#464,#465));
#467=FACE_OUTER_BOUND('',#466,.F.);
#468=ADVANCED_FACE('',(#467),#460,.T.);
#469=CARTESIAN_POINT('',(-2.46E1,2.594765075495E0,1.E0));
#470=DIRECTION('',(0.E0,1.E0,0.E0));
#471=DIRECTION('',(1.E0,0.E0,0.E0));
#472=AXIS2_PLACEMENT_3D('',#469,#470,#471);
#473=CONICAL_SURFACE('',#472,1.000928115120E0,2.E0);
#474=ORIENTED_EDGE('',*,*,#463,.T.);
#475=ORIENTED_EDGE('',*,*,#359,.F.);
#476=ORIENTED_EDGE('',*,*,#338,.F.);
#477=ORIENTED_EDGE('',*,*,#356,.T.);
#478=EDGE_LOOP('',(#474,#475,#476,#477));
#479=FACE_OUTER_BOUND('',#478,.F.);
#480=ADVANCED_FACE('',(#479),#473,.T.);
#481=CLOSED_SHELL('',(#238,#253,#267,#281,#295,#309,#322,#348,#363,#378,#390,
#401,#416,#429,#443,#455,#468,#480));
#482=MANIFOLD_SOLID_BREP('',#481);
#483=DIMENSIONAL_EXPONENTS(1.E0,0.E0,0.E0,0.E0,0.E0,0.E0,0.E0);
#485=LENGTH_MEASURE_WITH_UNIT(LENGTH_MEASURE(2.54E1),#484);
#486=(CONVERSION_BASED_UNIT('INCH',#485)LENGTH_UNIT()NAMED_UNIT(#483));
#487=DIMENSIONAL_EXPONENTS(0.E0,0.E0,0.E0,0.E0,0.E0,0.E0,0.E0);
#489=PLANE_ANGLE_MEASURE_WITH_UNIT(PLANE_ANGLE_MEASURE(1.745329251994E-2),#488);
#490=(CONVERSION_BASED_UNIT('DEGREE',#489)NAMED_UNIT(*)PLANE_ANGLE_UNIT());
#492=UNCERTAINTY_MEASURE_WITH_UNIT(LENGTH_MEASURE(5.678540321209E-3),#486,
'closure',
'Maximum model space distance between geometric entities at asserted connectivities');
#493=(GEOMETRIC_REPRESENTATION_CONTEXT(3)GLOBAL_UNCERTAINTY_ASSIGNED_CONTEXT((
#492))GLOBAL_UNIT_ASSIGNED_CONTEXT((#486,#490,#491))REPRESENTATION_CONTEXT
('ID1','3'));
#495=APPLICATION_CONTEXT(
'CONFIGURATION CONTROLLED 3D DESIGNS OF MECHANICAL PARTS AND ASSEMBLIES');
#496=APPLICATION_PROTOCOL_DEFINITION('international standard',
'config_control_design',1994,#495);
#497=DESIGN_CONTEXT('',#495,'design');
#498=MECHANICAL_CONTEXT('',#495,'mechanical');
#499=PRODUCT('8YB750032','8YB750032','NOT SPECIFIED',(#498));
#500=PRODUCT_DEFINITION_FORMATION_WITH_SPECIFIED_SOURCE('1','LAST_VERSION',#499,
.MADE.);
#504=PRODUCT_CATEGORY('part','');
#505=PRODUCT_RELATED_PRODUCT_CATEGORY('detail','',(#499));
#506=PRODUCT_CATEGORY_RELATIONSHIP('','',#504,#505);
#507=SECURITY_CLASSIFICATION_LEVEL('unclassified');
#508=SECURITY_CLASSIFICATION('','',#507);
#509=CC_DESIGN_SECURITY_CLASSIFICATION(#508,(#500));
#510=APPROVAL_STATUS('approved');
#511=APPROVAL(#510,'');
#512=CC_DESIGN_APPROVAL(#511,(#508,#500,#501));
#513=CALENDAR_DATE(123,12,6);
#514=COORDINATED_UNIVERSAL_TIME_OFFSET(8,0,.AHEAD.);
#515=LOCAL_TIME(15,49,2.4E1,#514);
#516=DATE_AND_TIME(#513,#515);
#517=APPROVAL_DATE_TIME(#516,#511);
#518=DATE_TIME_ROLE('creation_date');
#519=CC_DESIGN_DATE_AND_TIME_ASSIGNMENT(#516,#518,(#501));
#520=DATE_TIME_ROLE('classification_date');
#521=CC_DESIGN_DATE_AND_TIME_ASSIGNMENT(#516,#520,(#508));
#522=PERSON('UNSPECIFIED','UNSPECIFIED',$,$,$,$);
#523=ORGANIZATION('UNSPECIFIED','UNSPECIFIED','UNSPECIFIED');
#524=PERSON_AND_ORGANIZATION(#522,#523);
#525=APPROVAL_ROLE('approver');
#526=APPROVAL_PERSON_ORGANIZATION(#524,#511,#525);
#527=PERSON_AND_ORGANIZATION_ROLE('creator');
#528=CC_DESIGN_PERSON_AND_ORGANIZATION_ASSIGNMENT(#524,#527,(#500,#501));
#529=PERSON_AND_ORGANIZATION_ROLE('design_supplier');
#530=CC_DESIGN_PERSON_AND_ORGANIZATION_ASSIGNMENT(#524,#529,(#500));
#531=PERSON_AND_ORGANIZATION_ROLE('classification_officer');
#532=CC_DESIGN_PERSON_AND_ORGANIZATION_ASSIGNMENT(#524,#531,(#508));
#533=PERSON_AND_ORGANIZATION_ROLE('design_owner');
#534=CC_DESIGN_PERSON_AND_ORGANIZATION_ASSIGNMENT(#524,#533,(#499));
#5=CIRCLE('',#4,2.E0);
#54=CIRCLE('',#53,2.E0);
#79=CIRCLE('',#78,9.626980762706E-1);
#84=CIRCLE('',#83,9.626980762706E-1);
#89=CIRCLE('',#88,9.626980762706E-1);
#94=CIRCLE('',#93,9.626980762706E-1);
#99=CIRCLE('',#98,1.039158153969E0);
#108=CIRCLE('',#107,3.E-1);
#113=CIRCLE('',#112,7.393409058628E-1);
#118=CIRCLE('',#117,7.393409058628E-1);
#123=CIRCLE('',#122,7.393409058628E-1);
#128=CIRCLE('',#127,7.393409058628E-1);
#133=CIRCLE('',#132,3.E-1);
#138=CIRCLE('',#137,3.E-1);
#143=CIRCLE('',#142,1.039158153969E0);
#152=CIRCLE('',#151,1.039158153969E0);
#161=CIRCLE('',#160,3.E-1);
#166=CIRCLE('',#165,1.039158153969E0);
#224=EDGE_CURVE('',#173,#174,#5,.T.);
#226=EDGE_CURVE('',#174,#176,#9,.T.);
#228=EDGE_CURVE('',#176,#178,#13,.T.);
#230=EDGE_CURVE('',#178,#180,#17,.T.);
#232=EDGE_CURVE('',#180,#182,#21,.T.);
#234=EDGE_CURVE('',#182,#173,#25,.T.);
#245=EDGE_CURVE('',#173,#185,#29,.T.);
#247=EDGE_CURVE('',#185,#186,#54,.T.);
#249=EDGE_CURVE('',#174,#186,#49,.T.);
#260=EDGE_CURVE('',#182,#194,#33,.T.);
#262=EDGE_CURVE('',#194,#185,#58,.T.);
#274=EDGE_CURVE('',#180,#192,#37,.T.);
#276=EDGE_CURVE('',#192,#194,#62,.T.);
#288=EDGE_CURVE('',#178,#190,#41,.T.);
#290=EDGE_CURVE('',#190,#192,#66,.T.);
#302=EDGE_CURVE('',#176,#188,#45,.T.);
#304=EDGE_CURVE('',#188,#190,#70,.T.);
#317=EDGE_CURVE('',#186,#188,#74,.T.);
#336=EDGE_CURVE('',#197,#198,#79,.T.);
#338=EDGE_CURVE('',#198,#197,#84,.T.);
#342=EDGE_CURVE('',#201,#202,#89,.T.);
#344=EDGE_CURVE('',#202,#201,#94,.T.);
#354=EDGE_CURVE('',#218,#217,#99,.T.);
#356=EDGE_CURVE('',#198,#217,#170,.T.);
#359=EDGE_CURVE('',#197,#218,#103,.T.);
#369=EDGE_CURVE('',#214,#213,#128,.T.);
#371=EDGE_CURVE('',#213,#217,#161,.T.);
#374=EDGE_CURVE('',#214,#218,#108,.T.);
#384=EDGE_CURVE('',#205,#206,#113,.T.);
#386=EDGE_CURVE('',#206,#205,#118,.T.);
#396=EDGE_CURVE('',#213,#214,#123,.T.);
#408=EDGE_CURVE('',#206,#210,#138,.T.);
#410=EDGE_CURVE('',#209,#210,#152,.T.);
#412=EDGE_CURVE('',#205,#209,#133,.T.);
#424=EDGE_CURVE('',#210,#209,#143,.T.);
#436=EDGE_CURVE('',#202,#209,#156,.T.);
#439=EDGE_CURVE('',#201,#210,#147,.T.);
#463=EDGE_CURVE('',#217,#218,#166,.T.);
#484=(LENGTH_UNIT()NAMED_UNIT(*)SI_UNIT(.MILLI.,.METRE.));
#488=(NAMED_UNIT(*)PLANE_ANGLE_UNIT()SI_UNIT($,.RADIAN.));
#491=(NAMED_UNIT(*)SI_UNIT($,.STERADIAN.)SOLID_ANGLE_UNIT());
#494=ADVANCED_BREP_SHAPE_REPRESENTATION('',(#482),#493);
#501=PRODUCT_DEFINITION('design','',#500,#497);
#502=PRODUCT_DEFINITION_SHAPE('','SHAPE FOR 8YB750032.',#501);
#503=SHAPE_DEFINITION_REPRESENTATION(#502,#494);
ENDSEC;
END-ISO-10303-21;
